999
Creator: XTrace V 1.20 Evolution Level 22838
0
SECTION
2
TABLES
0
TABLE
2
LTYPE
70
6
0
LTYPE
2
FULL
70
64
3
----
72
65
73
0
40
0.000
0
ENDTAB
0
TABLE
2
LAYER
70
1
0
LAYER
2
LEVEL1
70
64
62
1
6
FULL
0
LAYER
2
LEVEL2
70
64
62
1
6
FULL
0
LAYER
2
LEVEL3
70
64
62
1
6
FULL
0
ENDTAB
0
ENDSEC
0
SECTION
2
ENTITIES
0
POLYLINE
8
LEVEL2
62
1
6
FULL
66
1
70
1
0
VERTEX
8
LEVEL2
62
1
6
FULL
10
56.00000
20
418.84618
0
VERTEX
8
LEVEL2
62
1
6
FULL
10
137.00000
20
418.84618
0
VERTEX
8
LEVEL2
62
1
6
FULL
10
137.00000
20
393.75002
0
VERTEX
8
LEVEL2
62
1
6
FULL
10
170.00000
20
305.48079
0
VERTEX
8
LEVEL2
62
1
6
FULL
10
203.00000
20
393.75002
0
VERTEX
8
LEVEL2
62
1
6
FULL
10
203.00000
20
418.84618
0
VERTEX
8
LEVEL2
62
1
6
FULL
10
284.00000
20
418.84618
0
VERTEX
8
LEVEL2
62
1
6
FULL
10
284.00000
20
394.61541
0
VERTEX
8
LEVEL2
62
1
6
FULL
10
253.00000
20
290.76925
0
VERTEX
8
LEVEL2
62
1
6
FULL
10
251.00000
20
280.38463
0
VERTEX
8
LEVEL2
62
1
6
FULL
10
257.00000
20
280.38463
0
VERTEX
8
LEVEL2
62
1
6
FULL
10
262.00000
20
258.75002
0
VERTEX
8
LEVEL2
62
1
6
FULL
10
263.00000
20
258.75002
0
VERTEX
8
LEVEL2
62
1
6
FULL
10
263.00000
20
234.51924
0
VERTEX
8
LEVEL2
62
1
6
FULL
10
250.00000
20
234.51924
0
VERTEX
8
LEVEL2
62
1
6
FULL
10
250.00000
20
257.01925
0
VERTEX
8
LEVEL2
62
1
6
FULL
10
244.00000
20
257.01925
0
VERTEX
8
LEVEL2
62
1
6
FULL
10
231.00000
20
208.55770
0
VERTEX
8
LEVEL2
62
1
6
FULL
10
244.00000
20
165.28847
0
VERTEX
8
LEVEL2
62
1
6
FULL
10
250.00000
20
165.28847
0
VERTEX
8
LEVEL2
62
1
6
FULL
10
250.00000
20
187.78847
0
VERTEX
8
LEVEL2
62
1
6
FULL
10
263.00000
20
187.78847
0
VERTEX
8
LEVEL2
62
1
6
FULL
10
263.00000
20
163.55770
0
VERTEX
8
LEVEL2
62
1
6
FULL
10
257.00000
20
144.51924
0
VERTEX
8
LEVEL2
62
1
6
FULL
10
257.00000
20
141.92309
0
VERTEX
8
LEVEL2
62
1
6
FULL
10
251.00000
20
141.92309
0
VERTEX
8
LEVEL2
62
1
6
FULL
10
283.00000
20
27.69231
0
VERTEX
8
LEVEL2
62
1
6
FULL
10
284.00000
20
27.69231
0
VERTEX
8
LEVEL2
62
1
6
FULL
10
284.00000
20
3.46154
0
VERTEX
8
LEVEL2
62
1
6
FULL
10
203.00000
20
3.46154
0
VERTEX
8
LEVEL2
62
1
6
FULL
10
203.00000
20
29.42308
0
VERTEX
8
LEVEL2
62
1
6
FULL
10
169.00000
20
115.96155
0
VERTEX
8
LEVEL2
62
1
6
FULL
10
137.00000
20
28.55769
0
VERTEX
8
LEVEL2
62
1
6
FULL
10
137.00000
20
3.46154
0
VERTEX
8
LEVEL2
62
1
6
FULL
10
56.00000
20
3.46154
0
VERTEX
8
LEVEL2
62
1
6
FULL
10
56.00000
20
27.69231
0
VERTEX
8
LEVEL2
62
1
6
FULL
10
87.00000
20
131.53847
0
VERTEX
8
LEVEL2
62
1
6
FULL
10
103.00000
20
187.78847
0
VERTEX
8
LEVEL2
62
1
6
FULL
10
83.00000
20
187.78847
0
VERTEX
8
LEVEL2
62
1
6
FULL
10
83.00000
20
141.92309
0
VERTEX
8
LEVEL2
62
1
6
FULL
10
70.00000
20
141.92309
0
VERTEX
8
LEVEL2
62
1
6
FULL
10
70.00000
20
234.51924
0
VERTEX
8
LEVEL2
62
1
6
FULL
10
83.00000
20
234.51924
0
VERTEX
8
LEVEL2
62
1
6
FULL
10
83.00000
20
211.15386
0
VERTEX
8
LEVEL2
62
1
6
FULL
10
108.00000
20
211.15386
0
VERTEX
8
LEVEL2
62
1
6
FULL
10
97.00000
20
256.15386
0
VERTEX
8
LEVEL2
62
1
6
FULL
10
96.00000
20
256.15386
0
VERTEX
8
LEVEL2
62
1
6
FULL
10
96.00000
20
257.01925
0
VERTEX
8
LEVEL2
62
1
6
FULL
10
70.00000
20
257.01925
0
VERTEX
8
LEVEL2
62
1
6
FULL
10
70.00000
20
280.38463
0
VERTEX
8
LEVEL2
62
1
6
FULL
10
89.00000
20
280.38463
0
VERTEX
8
LEVEL2
62
1
6
FULL
10
57.00000
20
394.61541
0
VERTEX
8
LEVEL2
62
1
6
FULL
10
56.00000
20
394.61541
0
VERTEX
8
LEVEL2
62
1
6
FULL
10
56.00000
20
418.84618
0
SEQEND
8
LEVEL2
62
1
6
FULL
0
POLYLINE
8
LEVEL2
62
1
6
FULL
66
1
70
1
0
VERTEX
8
LEVEL2
62
1
6
FULL
10
3.00000
20
280.38463
0
VERTEX
8
LEVEL2
62
1
6
FULL
10
56.00000
20
280.38463
0
VERTEX
8
LEVEL2
62
1
6
FULL
10
56.00000
20
257.01925
0
VERTEX
8
LEVEL2
62
1
6
FULL
10
3.00000
20
257.01925
0
VERTEX
8
LEVEL2
62
1
6
FULL
10
3.00000
20
280.38463
0
SEQEND
8
LEVEL2
62
1
6
FULL
0
POLYLINE
8
LEVEL2
62
1
6
FULL
66
1
70
1
0
VERTEX
8
LEVEL2
62
1
6
FULL
10
283.00000
20
280.38463
0
VERTEX
8
LEVEL2
62
1
6
FULL
10
330.00000
20
280.38463
0
VERTEX
8
LEVEL2
62
1
6
FULL
10
330.00000
20
257.01925
0
VERTEX
8
LEVEL2
62
1
6
FULL
10
283.00000
20
257.01925
0
VERTEX
8
LEVEL2
62
1
6
FULL
10
283.00000
20
280.38463
0
SEQEND
8
LEVEL2
62
1
6
FULL
0
POLYLINE
8
LEVEL2
62
1
6
FULL
66
1
70
1
0
VERTEX
8
LEVEL2
62
1
6
FULL
10
23.00000
20
234.51924
0
VERTEX
8
LEVEL2
62
1
6
FULL
10
36.00000
20
234.51924
0
VERTEX
8
LEVEL2
62
1
6
FULL
10
36.00000
20
141.92309
0
VERTEX
8
LEVEL2
62
1
6
FULL
10
23.00000
20
141.92309
0
VERTEX
8
LEVEL2
62
1
6
FULL
10
23.00000
20
234.51924
0
SEQEND
8
LEVEL2
62
1
6
FULL
0
POLYLINE
8
LEVEL2
62
1
6
FULL
66
1
70
1
0
VERTEX
8
LEVEL2
62
1
6
FULL
10
277.00000
20
234.51924
0
VERTEX
8
LEVEL2
62
1
6
FULL
10
290.00000
20
234.51924
0
VERTEX
8
LEVEL2
62
1
6
FULL
10
290.00000
20
211.15386
0
VERTEX
8
LEVEL2
62
1
6
FULL
10
317.00000
20
211.15386
0
VERTEX
8
LEVEL2
62
1
6
FULL
10
317.00000
20
187.78847
0
VERTEX
8
LEVEL2
62
1
6
FULL
10
290.00000
20
187.78847
0
VERTEX
8
LEVEL2
62
1
6
FULL
10
290.00000
20
165.28847
0
VERTEX
8
LEVEL2
62
1
6
FULL
10
330.00000
20
165.28847
0
VERTEX
8
LEVEL2
62
1
6
FULL
10
330.00000
20
141.92309
0
VERTEX
8
LEVEL2
62
1
6
FULL
10
283.00000
20
141.92309
0
VERTEX
8
LEVEL2
62
1
6
FULL
10
277.00000
20
161.82693
0
VERTEX
8
LEVEL2
62
1
6
FULL
10
277.00000
20
234.51924
0
SEQEND
8
LEVEL2
62
1
6
FULL
0
POLYLINE
8
LEVEL1
62
2
6
FULL
66
1
70
1
0
VERTEX
8
LEVEL1
62
2
6
FULL
10
0.00000
20
421.44233
0
VERTEX
8
LEVEL1
62
2
6
FULL
10
333.00000
20
421.44233
0
VERTEX
8
LEVEL1
62
2
6
FULL
10
333.00000
20
0.86538
0
VERTEX
8
LEVEL1
62
2
6
FULL
10
0.00000
20
0.86538
0
VERTEX
8
LEVEL1
62
2
6
FULL
10
0.00000
20
421.44233
0
SEQEND
8
LEVEL1
62
2
6
FULL
0
POLYLINE
8
LEVEL3
62
2
6
FULL
66
1
70
1
0
VERTEX
8
LEVEL3
62
2
6
FULL
10
5.00000
20
278.65386
0
VERTEX
8
LEVEL3
62
2
6
FULL
10
54.00000
20
278.65386
0
VERTEX
8
LEVEL3
62
2
6
FULL
10
54.00000
20
258.75002
0
VERTEX
8
LEVEL3
62
2
6
FULL
10
5.00000
20
258.75002
0
VERTEX
8
LEVEL3
62
2
6
FULL
10
5.00000
20
278.65386
0
SEQEND
8
LEVEL3
62
2
6
FULL
0
POLYLINE
8
LEVEL3
62
2
6
FULL
66
1
70
1
0
VERTEX
8
LEVEL3
62
2
6
FULL
10
72.00000
20
278.65386
0
VERTEX
8
LEVEL3
62
2
6
FULL
10
122.00000
20
278.65386
0
VERTEX
8
LEVEL3
62
2
6
FULL
10
127.00000
20
257.88463
0
VERTEX
8
LEVEL3
62
2
6
FULL
10
128.00000
20
257.88463
0
VERTEX
8
LEVEL3
62
2
6
FULL
10
128.00000
20
209.42309
0
VERTEX
8
LEVEL3
62
2
6
FULL
10
121.00000
20
186.05770
0
VERTEX
8
LEVEL3
62
2
6
FULL
10
128.00000
20
166.15386
0
VERTEX
8
LEVEL3
62
2
6
FULL
10
128.00000
20
143.65385
0
VERTEX
8
LEVEL3
62
2
6
FULL
10
118.00000
20
143.65385
0
VERTEX
8
LEVEL3
62
2
6
FULL
10
112.00000
20
162.69232
0
VERTEX
8
LEVEL3
62
2
6
FULL
10
112.00000
20
189.51924
0
VERTEX
8
LEVEL3
62
2
6
FULL
10
81.00000
20
189.51924
0
VERTEX
8
LEVEL3
62
2
6
FULL
10
81.00000
20
143.65385
0
VERTEX
8
LEVEL3
62
2
6
FULL
10
72.00000
20
143.65385
0
VERTEX
8
LEVEL3
62
2
6
FULL
10
72.00000
20
232.78848
0
VERTEX
8
LEVEL3
62
2
6
FULL
10
81.00000
20
232.78848
0
VERTEX
8
LEVEL3
62
2
6
FULL
10
81.00000
20
209.42309
0
VERTEX
8
LEVEL3
62
2
6
FULL
10
118.00000
20
209.42309
0
VERTEX
8
LEVEL3
62
2
6
FULL
10
118.00000
20
258.75002
0
VERTEX
8
LEVEL3
62
2
6
FULL
10
72.00000
20
258.75002
0
VERTEX
8
LEVEL3
62
2
6
FULL
10
72.00000
20
278.65386
0
SEQEND
8
LEVEL3
62
2
6
FULL
0
POLYLINE
8
LEVEL3
62
2
6
FULL
66
1
70
1
0
VERTEX
8
LEVEL3
62
2
6
FULL
10
152.00000
20
278.65386
0
VERTEX
8
LEVEL3
62
2
6
FULL
10
189.00000
20
278.65386
0
VERTEX
8
LEVEL3
62
2
6
FULL
10
194.00000
20
257.88463
0
VERTEX
8
LEVEL3
62
2
6
FULL
10
195.00000
20
257.88463
0
VERTEX
8
LEVEL3
62
2
6
FULL
10
195.00000
20
143.65385
0
VERTEX
8
LEVEL3
62
2
6
FULL
10
185.00000
20
143.65385
0
VERTEX
8
LEVEL3
62
2
6
FULL
10
185.00000
20
189.51924
0
VERTEX
8
LEVEL3
62
2
6
FULL
10
154.00000
20
189.51924
0
VERTEX
8
LEVEL3
62
2
6
FULL
10
154.00000
20
143.65385
0
VERTEX
8
LEVEL3
62
2
6
FULL
10
145.00000
20
143.65385
0
VERTEX
8
LEVEL3
62
2
6
FULL
10
145.00000
20
232.78848
0
VERTEX
8
LEVEL3
62
2
6
FULL
10
154.00000
20
232.78848
0
VERTEX
8
LEVEL3
62
2
6
FULL
10
154.00000
20
209.42309
0
VERTEX
8
LEVEL3
62
2
6
FULL
10
185.00000
20
209.42309
0
VERTEX
8
LEVEL3
62
2
6
FULL
10
185.00000
20
258.75002
0
VERTEX
8
LEVEL3
62
2
6
FULL
10
152.00000
20
258.75002
0
VERTEX
8
LEVEL3
62
2
6
FULL
10
152.00000
20
278.65386
0
SEQEND
8
LEVEL3
62
2
6
FULL
0
POLYLINE
8
LEVEL3
62
2
6
FULL
66
1
70
1
0
VERTEX
8
LEVEL3
62
2
6
FULL
10
219.00000
20
278.65386
0
VERTEX
8
LEVEL3
62
2
6
FULL
10
255.00000
20
278.65386
0
VERTEX
8
LEVEL3
62
2
6
FULL
10
261.00000
20
258.75002
0
VERTEX
8
LEVEL3
62
2
6
FULL
10
261.00000
20
236.25001
0
VERTEX
8
LEVEL3
62
2
6
FULL
10
252.00000
20
236.25001
0
VERTEX
8
LEVEL3
62
2
6
FULL
10
252.00000
20
258.75002
0
VERTEX
8
LEVEL3
62
2
6
FULL
10
219.00000
20
258.75002
0
VERTEX
8
LEVEL3
62
2
6
FULL
10
219.00000
20
278.65386
0
SEQEND
8
LEVEL3
62
2
6
FULL
0
POLYLINE
8
LEVEL3
62
2
6
FULL
66
1
70
1
0
VERTEX
8
LEVEL3
62
2
6
FULL
10
285.00000
20
278.65386
0
VERTEX
8
LEVEL3
62
2
6
FULL
10
328.00000
20
278.65386
0
VERTEX
8
LEVEL3
62
2
6
FULL
10
328.00000
20
258.75002
0
VERTEX
8
LEVEL3
62
2
6
FULL
10
285.00000
20
258.75002
0
VERTEX
8
LEVEL3
62
2
6
FULL
10
285.00000
20
278.65386
0
SEQEND
8
LEVEL3
62
2
6
FULL
0
POLYLINE
8
LEVEL3
62
2
6
FULL
66
1
70
1
0
VERTEX
8
LEVEL3
62
2
6
FULL
10
25.00000
20
232.78848
0
VERTEX
8
LEVEL3
62
2
6
FULL
10
34.00000
20
232.78848
0
VERTEX
8
LEVEL3
62
2
6
FULL
10
34.00000
20
143.65385
0
VERTEX
8
LEVEL3
62
2
6
FULL
10
25.00000
20
143.65385
0
VERTEX
8
LEVEL3
62
2
6
FULL
10
25.00000
20
232.78848
0
SEQEND
8
LEVEL3
62
2
6
FULL
0
POLYLINE
8
LEVEL3
62
2
6
FULL
66
1
70
1
0
VERTEX
8
LEVEL3
62
2
6
FULL
10
212.00000
20
232.78848
0
VERTEX
8
LEVEL3
62
2
6
FULL
10
221.00000
20
232.78848
0
VERTEX
8
LEVEL3
62
2
6
FULL
10
221.00000
20
163.55770
0
VERTEX
8
LEVEL3
62
2
6
FULL
10
252.00000
20
163.55770
0
VERTEX
8
LEVEL3
62
2
6
FULL
10
252.00000
20
186.05770
0
VERTEX
8
LEVEL3
62
2
6
FULL
10
261.00000
20
186.05770
0
VERTEX
8
LEVEL3
62
2
6
FULL
10
261.00000
20
163.55770
0
VERTEX
8
LEVEL3
62
2
6
FULL
10
255.00000
20
143.65385
0
VERTEX
8
LEVEL3
62
2
6
FULL
10
218.00000
20
143.65385
0
VERTEX
8
LEVEL3
62
2
6
FULL
10
212.00000
20
163.55770
0
VERTEX
8
LEVEL3
62
2
6
FULL
10
212.00000
20
232.78848
0
SEQEND
8
LEVEL3
62
2
6
FULL
0
POLYLINE
8
LEVEL3
62
2
6
FULL
66
1
70
1
0
VERTEX
8
LEVEL3
62
2
6
FULL
10
279.00000
20
232.78848
0
VERTEX
8
LEVEL3
62
2
6
FULL
10
288.00000
20
232.78848
0
VERTEX
8
LEVEL3
62
2
6
FULL
10
288.00000
20
209.42309
0
VERTEX
8
LEVEL3
62
2
6
FULL
10
315.00000
20
209.42309
0
VERTEX
8
LEVEL3
62
2
6
FULL
10
315.00000
20
189.51924
0
VERTEX
8
LEVEL3
62
2
6
FULL
10
288.00000
20
189.51924
0
VERTEX
8
LEVEL3
62
2
6
FULL
10
288.00000
20
163.55770
0
VERTEX
8
LEVEL3
62
2
6
FULL
10
328.00000
20
163.55770
0
VERTEX
8
LEVEL3
62
2
6
FULL
10
328.00000
20
143.65385
0
VERTEX
8
LEVEL3
62
2
6
FULL
10
285.00000
20
143.65385
0
VERTEX
8
LEVEL3
62
2
6
FULL
10
279.00000
20
161.82693
0
VERTEX
8
LEVEL3
62
2
6
FULL
10
279.00000
20
232.78848
0
SEQEND
8
LEVEL3
62
2
6
FULL
0
ENDSEC
0
EOF
